"Opening the Curtains"

Just wanted to share the guitar tabs for a song I’m composing at the moment. ”Opening the Curtains” is an instrumental song that’s supposed to be played on an acoustic steel stringed guitar.

Don’t forget the copyright.

1.
E|-3---2----0-0-(0)-(0)-(0)-|
B|---0---3------------------|
G|-----2-0------------------|
D|-2-----3----0-------------|
A|--------------------------|
E|--------------------------|

2.
E|-3---2----0-0-(0)-(0)-(0)-|
B|---0---3------------------|
G|-----2-0------------------|
D|-2-----3----0-------------|
A|--------------------------|
E|--------------------------|

3.
E|-2-----------------------------|
B|---0-2/5---4-0-0-0-0-1-1-------|
G|-1-----------------0-0-0-------|
D|--------------------------------|
A|-----------------2-2-0-0------|
E|-------------------------0-0-0-|

4.
E|-3---2-----0-0-0-0-0-|
B|-0-0-0-3-3-----------|
G|---0-2-0-0-0-0-------|
D|-2-----3-3-----------|
A|---------------------|
E|---------------------|
5.
E|-2------------------------|
B|---0-2/5--4-3-2-1-0-------|
G|-1------------------------|
D|--------------------------|
A|--------------------------|
E|--------------------------|